Аккорды и текст песни Ария — Твой новый мир

       Intro: (0:01 - 0:10)

Riff 1: x2 
Gtr.1+Gtr.2
Eb|-------------------------|-------------------------|
Bb|-------------------------|-------------------------|
Gb|-------------------------|-------------------------|
Db|-------------------------|-------------------------|
Ab|-------------------------|-------------------5-----|
Eb|-6--0--0--3--0--0--6--0--|-0--3--0--0--6--0--3-----|

Eb|-------------------------|-------------------------|
Bb|-------------------------|-------------------------|
Gb|-------------------------|-------------------------|
Db|-------------------------|-------------------------|
Ab|-------------------------|-------------4--5--4--5--|
Eb|-6--0--0--3--0--0--6--0--|-0--3--0--0--2--3--2--3--|

(0:10 - 0:20) Riff 1 w/another guitar adding some tremolo bar efefcts

(0:20 - 0:53)
Verse 1:
Voice
Eb|--7---7--7-------------------------6--------6--5------------|
Bb|--------------8--7----------8------------------------8--7---|
Gb|------------------------------------------------------------|
Db|------------------------------------------------------------|
Ab|------------------------------------------------------------|
Eb| Ty  mechtal  rodit?  -   sya     sot  -   ni let   nazad. -|

Gtr.1+Gtr.2
Eb|------------|---------------------|---|---------------------|
Bb|------------|---------------------|---|---------------------|
Gb|------------|---------------------|---|---------------------|
Db|--2---------|-2--------2--------2-|-4-|-4--------4--------4-|
Ab|--2---------|-2--------2--------2-|-4-|-4--------4--------4-|
Eb|--0---------|-0-----0--0-----0--0-|-2-|-2-----2--2-----2--2-|

Voice
Eb|--7--------7--5-----------------------5------5------7----7--|
Bb|-----------------8-----7------8----------8------8-----------|
Gb|------------------------------------------------------------|
Db|------------------------------------------------------------|
Ab|------------------------------------------------------------|
Eb| Bit? -  sya na tur - ni  -  rah  v bleske chernyh lat. Za -|

Gtr.1+Gtr.2
Eb|--------------------------|-------------------------|
Bb|--------------------------|-------------------------|
Gb|--------------------------|-------------------------|
Db|--5-----------------------|-5--------5--------5-----|
Ab|--5-----------------------|-5--------5--------5-----|
Eb|--3-----------------------|-3-----3--3-----3--3-----|

Eb|-------------------------|-------------------------|
Bb|-------------------------|-------------------------|
Gb|-2--------------------4--|(4)----------------------|
Db|-2--------------------4--|(4)----------------------|
Ab|-0--------------------2--|(2)-2--2--2--2--0--------|
Eb|-------------------------|-------------------3-----|

Voice
Eb|--7---7--5------------------------6--------6--5-------------|
Bb|---------------8--7------8--------------------------8--7----|
Gb|------------------------------------------------------------|
Db|------------------------------------------------------------|
Ab|------------------------------------------------------------|
Eb| kat bagrovoy   kras -  koy     tvoy      by krasil schit. -|

Gtr.1+Gtr.2
Eb|------------|---------------------|---|---------------------|
Bb|------------|---------------------|---|---------------------|
Gb|------------|---------------------|---|---------------------|
Db|--2---------|-2--------2--------2-|-4-|-4--------4--------4-|
Ab|--2---------|-2--------2--------2-|-4-|-4--------4--------4-|
Eb|--0---------|-0-----0--0-----0--0-|-2-|-2-----2--2-----2--2-|

Voice
Eb|-7---7--5--5------------5--------5------7--7---7---7-----5--|
Bb|---------------7----8------8---------8----------------------|
Gb|------------------------------------------------------------|
Db|------------------------------------------------------------|
Ab|------------------------------------------------------------|
Eb| I vragi  by zna - li, ty li - shen dushi, ty tak mech -ta- |

Gtr.1+Gtr.2
Eb|---|--------------------|----------|------------------------|
Bb|---|--------------------|----------|------------------------|
Gb|---|--------------------|-2------4-|(4)---------------------|
Db|-5-|-5-------5--------5-|-2------4-|(4)---------------------|
Ab|-5-|-5-------5--------5-|-0------2-|(2)-2--2--2--2--0-----3-|
Eb|-3-|-3----3--3-----3--3-|----------|-------------------3----|

Voice
Eb|-(5)-----------------------7-----5----------------5---------|
Bb|--------8----------5------------------8---------------------|
Gb|------------------------------------------------------------|
Db|------------------------------------------------------------|
Ab|------------------------------------------------------------|
Eb|  -     al...    s ut  -  ra     i   do           ut      --|

Gtr.1+Gtr.2
Eb|-------------------------|------------------------|---|-----|
Bb|-------------------------|------------------------|---|-----|
Gb|-------------------------|----------2--5--0-------|-4-|-3-2-|
Db|--------------2-----2--4-|-5--4--5-----------2----|-4-|-3-2-|
Ab|-(3)-2--3--5-----5-------|------------------------|-2-|-1-0-|
Eb|-------------------------|----------------------0-|---|-----|

Voice
Eb|--------------|
Bb|--8-----5-----|
Gb|--------------|
Db|--------------|
Ab|--------------|
Eb| ra  -  a... -|

Gtr.1+Gtr.2
Eb|--------------------------|-------------------------|
Bb|--------------------------|-------------------------|
Gb|--------------------------|-------------------------|
Db|--------------------------|-------------------------|
Ab|--------------------------|-------------------5-----|
Eb|--6--0--0--3--0--0--6--0--|-0--3--0--0--6--0--3-----|

Eb|-------------------------|-------------------------|
Bb|-------------------------|-------------------------|
Gb|-------------------------|-------------------------|
Db|-------------------------|-------------------------|
Ab|-------------------------|-------------4--5--4--5--|
Eb|-6--0--0--3--0--0--6--0--|-0--3--0--0--2--3--2--3--|

Gtr.1+Gtr.2
Eb|--------------------------|-------------------------|
Bb|--------------------------|-------------------------|
Gb|--------------------------|-------------------------|
Db|--------------------------|-------------------------|
Ab|--------------------------|-------------------5-----|
Eb|--6--0--0--3--0--0--6--0--|-0--3--0--0--6--0--3-----|

Eb|-------------------------|-------------------------|
Bb|-------------------------|-------------------------|
Gb|-------------------------|-------------------------|
Db|-------------------------|-------------------------|
Ab|-------------------------|-------------------------|
Eb|-6--0--0--3--0--0--6--0--|-0--3--0--0--0--0--0--0--|

(0:54 - 1:22) Verse 2 = Verse 1

(1:23 - 1:32)
Pre-Chorus:
Voice
Eb|------------------------------------------------------------|
Bb|---7----7--7---7-------7--7-----5--------5---5-----7--8-----|
Gb|--------------------6---------------------------------------|
Db|------------------------------------------------------------|
Ab|------------------------------------------------------------|
Eb|- Ne  zna -et bo - li  i pro -schal? -  nyh gor? -kih slov -|

Gtr.1+Gtr.2
Eb|-----|-------------------------|-----|----------------------|
Bb|-----|-------------------------|-----|----------------------|
Gb|-----|----------------------5--|-(5)-|-(5)------------------|
Db|--4--|-(4)------------------5--|-(5)-|-(5)----------------5-|
Ab|--4--|-(4)------------------3--|-(3)-|-(3)----------------5-|
Eb|--2--|-(2)---------------------|-----|--------------------3-|

Voice
Eb|-----------------5---7-----7--5---------5-------------------|
Bb|--------8--8--8--------------------8----------8----7--------|
Gb|--------------------------------------------------------7---|
Db|------------------------------------------------------------|
Ab|------------------------------------------------------------|
Eb|----    etot samyy  no -  vyy iz  mi - rov. Tvoy  no - vyy -|

Gtr.1+Gtr.2
Eb|------------------------|-----|-------------------------|---|
Bb|------------------------|-----|-------------------------|---|
Gb|------------------------|-----|-7--------7--------7-----|-R-|
Db|-(5)--------------------|-(5)-|-7--------7--------7-----|-E-|
Ab|-(5)--------------------|-(5)-|-5-----5--5-----5--5-----|-S-|
Eb|-(3)--------------------|-(3)-|-------------------------|-T-|

(1:32 - 1:51)
Chorus:
Voice
Eb|-------------------------------------------------------5--|
Bb|--5-----------------7---8------7-------------5---8--------|
Gb|----------------------------------------7-----------------|
Db|----------------------------------------------------------|
Ab|----------------------------------------------------------|
Eb| mir.              Ty  ve  -  rish?  v ne - go,  ob - re -|

Gtr.2
Eb|-E5----------------------|----------------------|
Bb|-------------------------|----------------------|
Gb|-------------------------|----------------------|
Db|-------------------------|----------------------|
Ab|--7--7--7--7--7--7--7--7-|-10-10-10-9--9--9--10-|
Eb|-------------------------|----------------------|

Eb|-C5---------------------|-C5-------Н5-------G5---|
Bb|------------------------|------------------------|
Gb|------------------------|------------------------|
Db|------------------------|------------------------|
Ab|-3--3--3--3--3--3--3--3-|-3--3--3--3--3--3--3--3-|
Eb|------------------------|------------------------|

Voice
Eb|--7----7---7---7----5-----------5---------------------------|
Bb|--------------------------8-----------8--------7------------|
Gb|--------------------------------------------------------7---|
Db|------------------------------------------------------------|
Ab|------------------------------------------------------------|
Eb| ka - ya  na  gi - bel? vra -  gov. Tvoy      no   -   vyy -|

Gtr.2
Eb|--G5----------------------|----------------------|
Bb|--------------------------|----------------------|
Gb|--------------------------|----------------------|
Db|--------------------------|----------------------|
Ab|--10-10-10-10-10-10-10-10-|-10-10-10-9--9--9--10-|
Eb|--------------------------|----------------------|

Eb|-D5----------------------|-Н5-------Н5-------D5----|
Bb|-------------------------|-------------------------|
Gb|-------------------------|-------------------------|
Db|-------------------------|-------------------------|
Ab|-5--5--5--5--5--5--5--5--|-------------------5-----|
Eb|-------------------------|-7--7--7--7--7--7--------|
...

(1:51 - 2:01)
Riff 2: x2 
Gtr.1+Gtr.2
Eb||-------------------------|-------------------------|
Bb||-------------------------|-------------------------|
Gb||-------R-----R-----R-----|-------R-----R-----R-----|
Db||-------E-----E-----E-----|-------E-----E-----E-----|
Ab||-2--2--S--2--S--2--S--2--|----2--S--2--S--2--S--2--|
Eb||-0--0--T--0--T--0--T--0--|-3--0--T--0--T--0--T--0--|

Eb|-------------------------|-------------------------||
Bb|-------------------------|-------------------------||
Gb|-------R-----R-----R-----|-------------------------||
Db|-------E-----E-----E-----|-------------------------||
Ab|----2--S--2--S--2--S-----|-------------------------||
Eb|-5--0--T--0--T--0--T--0--|-6--0--5--0--3--0--5-----||

(2:01 - 2:11)
Riff 2A: x2 
Gtr.1+Gtr.2
Eb||-------------------------|-------------------------|
Bb||-------------------------|-------------------------|
Gb||-------R-----R-----R-----|-------R-----R-----R-----|
Db||-------E-----E-----E-----|-------E-----E-----E-----|
Ab||-4--4--S--4--S--4--S--4--|----4--S--4--S--4--S--4--|
Eb||-2--2--T--2--T--2--T--2--|-5--2--T--2--T--2--T--2--|

Eb|-------------------------|-------------------------||
Bb|-------------------------|-------------------------||
Gb|-------R-----R-----R-----|-------------------------||
Db|-------E-----E-----E-----|-------------------------||
Ab|-2--4--S--4--S--4--S-----|-3-----2-----------2-----||
Eb|----2--T--2--T--2--T--2--|----2-----2--5--2--------||

Solo: (2:11 - 2:31)
Lead
Eb|-----12----12----12----12-|-----12----12-------------|
Bb|-15bf--15bf--15bf--15bf---|-15bf--15bf--15b17rp12-12-|
Gb|--------------------------|-------------------14-----|
Db|--------------------------|--------------------------|
Ab|--------------------------|--------------------------|
Eb|--------------------------|--------------------------|

Eb|-------------12-12----12-|-------------------------|
Bb|-15bf----15bf-----15bf---|-15bf--17b20-17b20-17b20-|
Gb|-------------------------|-------------------------|
Db|-------------------------|-------------------------|
Ab|-------------------------|-------------------------|
Eb|-------------------------|-------------------------|

Gtr.1+Gtr.2
Eb|--------------------------|-------------------------|
Bb|--------------------------|-------------------------|
Gb|--------R-----R-----R-----|-------R-----R-----R-----|
Db|--------E-----E-----E-----|-------E-----E-----E-----|
Ab|--2--2--S--2--S--2--S--2--|----2--S--2--S--2--S--2--|
Eb|--0--0--T--0--T--0--T--0--|-3--0--T--0--T--0--T--0--|

Eb|-------------------------|-------------------------|
Bb|-------------------------|-------------------------|
Gb|-------R-----R-----R-----|-------------------------|
Db|-------E-----E-----E-----|-------------------------|
Ab|----2--S--2--S--2--S-----|-------------------------|
Eb|-5--0--T--0--T--0--T--0--|-6--0--5--0--3--0--5-----|

Lead
Eb|--15-17b19-^--^--^--^--^--|-^-r17p15---------------|
Bb|---------- keep picking --|----------17-17-17-1512-|
Gb|---------- the bent note -|------------------------|
Db|--------------------------|------------------------|
Ab|--------------------------|------------------------|
Eb|--------------------------|------------------------|

Eb|--------------------------------|
Bb|-15-12--------------------------|
Gb|------14-12h14p12-14-12---------|
Db|-----------------------14-14-12-|
Ab|--------------------------------|
Eb|--------------------------------|

Eb|--------------------------------|
Bb|--------------------------------|
Gb|--------------------------------|
Db|-14-12--------------------------|
Ab|------14-12h14p12-14-12---------|
Eb|-----------------------15-12-14-|

Gtr.1+Gtr.2
Eb|--------------------------|-------------------------|
Bb|--------------------------|-------------------------|
Gb|--------R-----R-----R-----|-------R-----R-----R-----|
Db|--------E-----E-----E-----|-------E-----E-----E-----|
Ab|--2--2--S--2--S--2--S--2--|----2--S--2--S--2--S--2--|
Eb|--0--0--T--0--T--0--T--0--|-3--0--T--0--T--0--T--0--|

Eb|-------------------------|-------------------------|
Bb|-------------------------|-------------------------|
Gb|-------R-----R-----R-----|-------------------------|
Db|-------E-----E-----E-----|-------------------------|
Ab|----2--S--2--S--2--S-----|-------------------------|
Eb|-5--0--T--0--T--0--T--0--|-6--0--5--0--3--0--5-----|

Lead
Eb|--------------------------|-------------------------|
Bb|--------------------------|-------------------------|
Gb|--------R--14-R--11-R-----|-17-14-17-14----17-------|
Db|-----11-E--14-E--11-E-----|-17-14-17-14----17-------|
Ab|--14----S-----S-----S--0--|----------------------14-|
Eb|--------T-----T-----T-----|-------------------------|

Eb|-------------------------|-------------------------|
Bb|-15b17----15b17----15b17-|------17b20-17b20-17b20--|
Gb|-------------------------|-------------------------|
Db|-------------------------|-------------------------|
Ab|-------------------------|-------------------------|
Eb|-------------------------|-------------------------|

Gtr.1+Gtr.2
Eb|--------------------------|-------------------------|
Bb|--------------------------|-------------------------|
Gb|--------R-----R-----R-----|-------R-----R-----R-----|
Db|--------E-----E-----E-----|-------E-----E-----E-----|
Ab|--4--4--S--4--S--4--S--4--|----4--S--4--S--4--S--4--|
Eb|--2--2--T--2--T--2--T--2--|-5--2--T--2--T--2--T--2--|

Eb|-------------------------|-------------------------|
Bb|-------------------------|-------------------------|
Gb|-------R-----R-----R-----|-------------------------|
Db|-------E-----E-----E-----|-------------------------|
Ab|-2--4--S--4--S--4--S-----|-3-----2-----------2-----|
Eb|----2--T--2--T--2--T--2--|----2-----2--5--2--------|

Lead
Eb|----------------------------------|
Bb|--17p14--------14-17p14--------14-|
Gb|-------16-14-16--------16-14-16---|
Db|----------------------------------|
Ab|----------------------------------|
Eb|----------------------------------|

Eb|---------------------------------------|
Bb|-17p14--------14-17p14----------14-17p-|
Gb|------16-14-16---------16-14-16--------|
Db|---------------------------------------|
Ab|---------------------------------------|
Eb|---------------------------------------|

Gtr.1+Gtr.2
Eb|-------------------------------|----------------------------|
Bb|-------------------------------|----------------------------|
Gb|---------R-------R-------R-----|---------R-------R-----R----|
Db|---------E-------E-------E-----|---------E-------E-----E----|
Ab|-4---4---S---4---S---4---S---4-|-----4---S---4---S--4--S--4-|
Eb|-2---2---T---2---T---2---T---2-|-5---2---T---2---T--2--T--2-|

Lead
Eb|---------------------------------------------|
Bb|--14--------14-17p14--------14-17p14---------|
Gb|----16-14-16--------16-14-16--------16-14-16-|
Db|---------------------------------------------|
Ab|----------------------------------- gradually|
Eb|---------------------------------------------|

Eb|-------------------------------------------|
Bb|-14-17p14----------14-17p14----------14-17-|
Gb|----------16-14-16----------16-14-16-------|
Db|-------------------------------------------|
Ab|press tremolo bar -------------------------|
Eb|-------------------------------------------|

Gtr.1+Gtr.2
Eb|--------------------------------|---------------------------|
Bb|--------------------------------|---------------------------|
Gb|----------R-------R-------R-----|---------------------------|
Db|----------E-------E-------E-----|---------------------------|
Ab|--2---4---S---4---S---4---S---4-|-3-------2---------------2-|
Eb|------2---T---2---T---2---T---2-|-----2-------2---5---2-----|

Riff 3: (2:31 - 2:50)
Gtr.1 Gtr.2
Eb|--------------------------|-------------------------|
Bb|--------------------------|-------------------------|
Gb|--------------------5-----|-7--------7-----5--------|
Db|--5-----9-----------7-----|-9--------9-----7--9-----|
Ab|--7-----10----------------|-------------------10----|
Eb|--------------------------|-------------------------|

Eb|-------------------------|-------------------------|
Bb|-------------------------|-------------------------|
Gb|-------------------5-----|-7--------7-----5--------|
Db|-5-----9-----------7-----|-9--------9-----7--9-----|
Ab|-7-----10----------------|-------------------10----|
Eb|-------------------------|-------------------------|

Bass
Gb|-----R--------------------|-------------------------|----R-|
Db|-----E--------------------|-------------------------|----E-|
Ab|-----S--------------------|-------------------------|----S-|
Eb|--0--T--------------------|-------------------------|-8--T-|

Gtr.1 Gtr.2
Eb|--------------------------|-------------------------|
Bb|--------------------------|-------------------------|
Gb|--------------------5-----|-7--------7-----5--------|
Db|--5-----9-----------7-----|-9--------9-----7--9-----|
Ab|--7-----10----------------|-------------------10----|
Eb|--------------------------|-------------------------|

Eb|-------------------------|-------------------------|
Bb|-------------------------|-------------------------|
Gb|-------11-------9--------|-7--------5--------7-----|
Db|-9-----12----7--10----5--|-9-----4--7-----5--9-----|
Ab|-10----------9--------7--|-------5--------7--------|
Eb|-------------------------|-------------------------|

Bass
Gb|------R-|-------11-------9--------|-7--------5--------7-----|
Db|------E-|-9-----------7--------5--|-------4--------5--------|
Ab|--10--S-|-------------------------|-------------------------|
Eb|------T-|-------------------------|-------------------------|

Gtr.1 Gtr.2
Eb|--------------------------|-------------------------|
Bb|--------------------------|-------------------------|
Gb|--------------------5-----|-7--------7-----5--------|
Db|--5-----9-----------7-----|-9--------9-----7--9-----|
Ab|--7-----10----------------|-------------------10----|
Eb|--------------------------|-------------------------|

Eb|-------------------------|-------------------------|
Bb|-------------------------|-------------------------|
Gb|-------------------5-----|-7--------7-----5--------|
Db|-5-----9-----------7-----|-9--------9-----7--9-----|
Ab|-7-----10----------------|-------------------10----|
Eb|-------------------------|-------------------------|

Bass
Gb|--------------------------|-------------------------|
Db|--------------------------|-------------------------|
Ab|--7--7--7--7--7--7--7--7--|-7--7--7--7--7--7--7--7--|
Eb|--------------------------|-------------------------|

Gb|-------------------------|-------------------------|
Db|-------------------------|-------------------------|
Ab|-------------------------|-------------------------|
Eb|-8--8--8--8--8--8--8--8--|-8--8--8--8--8--8--8--8--|

Gtr.1 Gtr.2
Eb|--------------------------|-------------------------|
Bb|--------------------------|-------------------------|
Gb|--------------------5-----|-7--------7-----5--------|
Db|--5-----9-----------7-----|-9--------9-----7--9-----|
Ab|--7-----10----------------|-------------------10----|
Eb|--------------------------|-------------------------|

Eb|-------------------------|-------------------------|
Bb|-------------------------|-------------------------|
Gb|-------11-------9--------|-7--------5--------7-----|
Db|-9-----12----7--10----5--|-9-----4--7-----5--9-----|
Ab|-10----------9--------7--|-------5--------7--------|
Eb|-------------------------|-------------------------|

Bass
Gb|--------------------------|-------------------------|
Db|--------------------------|-------------------------|
Ab|--10-10-10-10-10-10-10-10-|-10-10-10-10-10-10-10-10-|
Eb|--------------------------|-------------------------|

Gb|-------------------------|-------------------------|
Db|-------------------------|-------------------------|
Ab|-------------------------|-------------------------|
Eb|-10-10-10-10-10-10-10-10-|-7--7--7--7--7--7--7--7--|

Riff 4: (2:51 - 3:00)
Gtr.1+Gtr.2
Eb||-------------------------|-------------------------|
Bb||-------------------------|-------------------------|
Gb||-------------------------|-------------------------|
Db||----9--------7--------5--|(5)----4-----------------|
Ab||----7--------5--------3--|(3)----2-----------------|
Eb||-0--------0--------0-----|----0--------5--3--2--3--|

Eb|-------------------------|-------------------------||
Bb|-------------------------|-------------------------||
Gb|-------------------------|-------------------------||
Db|----9--------7--------5--|(5)----4-----------------||
Ab|----7--------5--------3--|(3)----2-----------------||
Eb|-0--------0--------0-----|----0--------5--3--2--3--||

(3:00 - 3:29) Verse 3 = Verse 1
(3:29 - 3:38) Pre-Chorus
(3:38 - 3:57) Chorus

Outro: (3:58 - 4:03)
Gtr.1+Gtr.2
Eb|--------------------------|-------------------------|
Bb|--------------------------|-------------------------|
Gb|--------------------------|-------------------------|
Db|--------------------------|-------------------------|
Ab|--------------------------|-------------------5-----|
Eb|--6--0--0--3--0--0--6--0--|-0--3--0--0--6--0--3-----|

Eb|-------------------------|-------------------------|
Bb|-------------------------|-------------------------|
Gb|-------------------------|-------------------------|
Db|-------------------------|-------------------------|
Ab|-------------------------|-------------4--5--4-----|
Eb|-6--0--0--3--0--0--6--0--|-0--3--0--0--2--3--2-----|
   

Другие аккорды Ария

Показать все

Разбор аккордов и текст песни Ария - Твой новый мир, под гитару.

Представляем Вашему вниманию полный разбор аккордов и текста песни Твой новый мир, группы Ария. На нашем сайте вы можете найти сразу несколько подборов аккордов этой композиции, с разными вариантами тональности и манер игры на гитаре.

Поиск по алфавиту:
Реклама: