Аккорды и текст песни Баста — Армия

       Соло:
    Am 
E||--0----0----------3----2----1----0------0------------
B||-----------------------------------------------------
G||-----------------------------------------------------
D||-----------------------------------------------------
A||-----------------------------------------------------
E||-----------------------------------------------------
 
       -3----2----1----0------0------------3----
       -----------------------------------------
       -----------------------------------------
       -----------------------------------------
       -----------------------------------------
       -----------------------------------------

       -3----2----1----0------0----------------------------------
       ----------------------------1----1----0----0--------------
       ------------------------------------------------2----2----
       ----------------------------------------------------------
       ----------------------------------------------------------
       ----------------------------------------------------------
Бас:
    Am 
G||-----------------------|-------------------------|-----------------------|-------------------------||
D||-----------------------|-------------------------|-----------------------|-------------------------||
A||--0----------0---------|--0----------0--3--3--2--|--0----------0---------|--0----------0--2--3--5--||
E||-------0---3------0----|-------0---3-------------|-------0---3------0----|-------0---3-------------||

Ритм: Am       
   

Другие аккорды Баста

Показать все

Разбор аккордов и текст песни Баста - Армия, под гитару.

Представляем Вашему вниманию полный разбор аккордов и текста песни Армия, группы Баста. На нашем сайте вы можете найти сразу несколько подборов аккордов этой композиции, с разными вариантами тональности и манер игры на гитаре.

Поиск по алфавиту:
Реклама: yoy.so
otvet.wiki
temp.cab/ru
stroika12.com
lentafor.me