Аккорды и текст песни Гражданская Оборона — Эй, бабища блевани

       Первые 4 строчки (Ее глазы как пловцы), играется по кругу:
1)-3-3--3-3--3-3--3-3--6-6--6-6--6-6--6-6
2)-3-3--3-3--3-3--3-3--6-6--6-6--6-6--6-6
3)-3-3--3-3--3-3--3-3--6-6--6-6--6-6--6-6
4)---------------------------------------
5)-----5---------5---------6---------8---
6)3---------5---------6---------8--------

Вторые 4 строчки (Ее писька волосата..):
1)-6-6--6-6--6-6--6-6--6-6--6-6--3-3--3-3--6-6--6-6--6-6--6-6--6-6--6-6-|-3-3--3-3|
2)-6-6--6-6--6-6--6-6--6-6--6-6--3-3--3-3--6-6--6-6--6-6--6-6--6-6--6-6-|-3-3--3-3|
3)-6-6--6-6--6-6--6-6--6-6--6-6--3-3--3-3--6-6--6-6--6-6--6-6--6-6--6-6-|-3-3--3-3| x4
4)----------------------------------------------------------------------|---------|
5)---------------6---------6---------5-------------------6---------6----|-----5---|
6)8----8----6---------6---------5---------8----8----6---------6---------|5--------|

Припев: (Эй бабища..), играется по кругу:
1)-3-3--3-3--3-3--3-3--3-3--3-3--3-3--3-3-
2)-3-3--3-3--3-3--3-3--3-3--3-3--3-3--3-3-
3)-3-3--3-3--3-3--3-3--3-3--3-3--3-3--3-3-
4)----------------------------------------
5)-----5---------5---------5---------5----
6)3---------3---------5---------5---------
   

Другие аккорды Гражданская Оборона

Показать все

Разбор аккордов и текст песни Гражданская Оборона - Эй, бабища блевани, под гитару.

Представляем Вашему вниманию полный разбор аккордов и текста песни Эй, бабища блевани, группы Гражданская Оборона. На нашем сайте вы можете найти сразу несколько подборов аккордов этой композиции, с разными вариантами тональности и манер игры на гитаре.

Поиск по алфавиту:
Реклама: