Аккорды и текст песни Сектор Газа — Нажми на газ

       Куплеты:
e----------------------
b----------------------
g-7-7-7-7-7-7-7-7-5----
D-7-7-7-7-7-7-7-7-5--5-
A-5-5-5-5-5-5-5-5-3--5-
E--------------------3-

Припевы:
e-------------------------------------------------
b-------------------------------------------------
g-----------------5-5-5-5-5-5-5-5-----------------
D-7-7-7-7-7-7-7-7-5-5-5-5-5-5-5-5-7-7-7-7-7-7-7-7-
A-7-7-7-7-7-7-7-7-3-3-3-3-3-3-3-3-7-7-7-7-7-7-7-7-
E-5-5-5-5-5-5-5-5-----------------5-5-5-5-5-5-5-5-

e-----------------
b-----------------
g-7-7-7-7-7-7-7-7-
D-7-7-7-7-7-7-7-7-
A-5-5-5-5-5-5-5-5-
E-----------------
   

Другие аккорды Сектор Газа

Показать все

Разбор аккордов и текст песни Сектор Газа - Нажми на газ, под гитару.

Представляем Вашему вниманию полный разбор аккордов и текста песни Нажми на газ, группы Сектор Газа. На нашем сайте вы можете найти сразу несколько подборов аккордов этой композиции, с разными вариантами тональности и манер игры на гитаре.

Поиск по алфавиту:
Реклама: