Аккорды и текст песни Ленинград — Дикий мужчина

       Intro: 
Рифф: 
   Bm   
e|---------------------------|    
B|---------------------------|    
G|-4---------4---------4-----|    
D|---4----4----4----4----4---|    
A|------5---------5--------5-|   
E|---------------------------|   

   Em
e|---------------------------|    
B|---------------------------|    
G|-4---------4---------4-----|    
D|---5--2-5----5--2-5----5-2-|    
A|---------------------------|   
E|---------------------------|   

   F#                         
e|---------------------------|
B|-2---------2---------2-----|
G|---3----3----3----3----3---|
D|------4---------4--------4-|
A|---------------------------|
E|---------------------------|

   Bm   
e|---------------------------|    
B|---------------------------|    
G|-4---------4----4----------|    
D|---4----4----4-------------|    
A|------5--------------------|   
E|---------------------------| 

Bm
Ты называешь меня говнюком
Em
Да, я все время бухой
F#
И твою жопу при людях хватаю
Bm
Своей волосатой рукой.

Bm
Да, мои ноги вонючие палки 
Em
На которых все в дырках носки
F#
А эти две кучи из пыли и грязи -
Bm
Это мои башмаки.

Рифф: 
   Bm   
e|---------------------------|    
B|---------------------------|    
G|-4---------4---------4-----|    
D|---4----4----4----4----4---|    
A|------5---------5--------5-|   
E|---------------------------|   

   Em
e|---------------------------|    
B|---------------------------|    
G|-4---------4---------4-----|    
D|---5--2-5----5--2-5----5-2-|    
A|---------------------------|   
E|---------------------------|   

   F#                         
e|---------------------------|
B|-2---------2---------2-----|
G|---3----3----3----3----3---|
D|------4---------4--------4-|
A|---------------------------|
E|---------------------------|

   Bm   
e|---------------------------|    
B|---------------------------|    
G|-4---------4----4----------|    
D|---4----4----4-------------|    
A|------5--------------------|   
E|---------------------------| 

Em F#
Да, ты права, я - дикий мужчина,
Em F#
Ты права, я - дикий мужчина,
Em F#
Ты права, я - дикий мужчина:
Bm
Яйца, табак, перегар и щетина

Рифф: 
   Bm   
e|---------------------------|    
B|---------------------------|    
G|-4---------4---------4-----|    
D|---4----4----4----4----4---|    
A|------5---------5--------5-|   
E|---------------------------|   

   Em
e|---------------------------|    
B|---------------------------|    
G|-4---------4---------4-----|    
D|---5--2-5----5--2-5----5-2-|    
A|---------------------------|   
E|---------------------------|   

   F#                         
e|---------------------------|
B|-2---------2---------2-----|
G|---3----3----3----3----3---|
D|------4---------4--------4-|
A|---------------------------|
E|---------------------------|

   Bm   
e|---------------------------|    
B|---------------------------|    
G|-4---------4----4----------|    
D|---4----4----4-------------|    
A|------5--------------------|   
E|---------------------------| 

Em F#
Да, ты права, я - дикий мужчина,
Em F#
Ты права, я - дикий мужчина,
Em F#
Ты права, я - дикий мужчина:
Bm
Яйца, табак, перегар и щетина

Outro: x2
Рифф: 
   Bm   
e|---------------------------|    
B|---------------------------|    
G|-4---------4---------4-----|    
D|---4----4----4----4----4---|    
A|------5---------5--------5-|   
E|---------------------------|   

   Em
e|---------------------------|    
B|---------------------------|    
G|-4---------4---------4-----|    
D|---5--2-5----5--2-5----5-2-|    
A|---------------------------|   
E|---------------------------|   

   F#                         
e|---------------------------|
B|-2---------2---------2-----|
G|---3----3----3----3----3---|
D|------4---------4--------4-|
A|---------------------------|
E|---------------------------|

   Bm   
e|---------------------------|    
B|---------------------------|    
G|-4---------4----4----------|    
D|---4----4----4-------------|    
A|------5--------------------|   
E|---------------------------| 
   

Другие аккорды Ленинград

Показать все

Разбор аккордов и текст песни Ленинград - Дикий мужчина, под гитару.

Представляем Вашему вниманию полный разбор аккордов и текста песни Дикий мужчина, группы Ленинград. На нашем сайте вы можете найти сразу несколько подборов аккордов этой композиции, с разными вариантами тональности и манер игры на гитаре.

Поиск по алфавиту:
Реклама: