Аккорды и текст песни Ленинград — Дачники

       Рифф:
   Am
e|----------------|
B|----------------|
G|----------------|
D|----------------|
A|----7-6-5-------|
E|-5--------8-7-6-|

Fill 1:
        Am
e|-------5--|
B|-------5--|
G|-------5--|
D|-------7--|
A|-------7--|
E|-8-7-6-5--|

Fill 2:
   Am     Dm
e|--------5--|
B|--------6--|
G|--------7--|
D|--------7--|
A|--------5--|
E|-5-8-5-----|

Am              [Fill 1]
Я подыхаю на работе
Am                     [Fill 1]
Потом бухаю, потом в блевоте
Am                    [Fill 1]
Домой приду, а дома - ты,
Am                     [Fill 2]
Яичница, телек, герани цветы.

Dm
Вот будет лето -
Am
Поедем на дачу
Dm
В руки лопату -
E
хуячим хуячим.

Рифф:
   Am
e|----------------|
B|----------------|
G|----------------|
D|----------------|
A|----7-6-5-------|
E|-5--------8-7-6-|
ДА-ЧА!!!

Am              [Fill 1]
Я подыхаю на работе,
Am              [Fill 1]
Потом бухаю, потом в блевоте
Am              [Fill 1]
И нету в жизни ни хуя
Am              [Fill 2]
Этого, как его... о! счастья

Dm
Вот будет лето -
Am
Поедем на дачу
Dm
В руки лопату -
E
хуячим хуячим.

Рифф:
   Am
e|----------------|
B|----------------|
G|----------------|
D|----------------|
A|----7-6-5-------|
E|-5--------8-7-6-|
ДА-ЧА!!!
   

Другие аккорды Ленинград

Показать все

Разбор аккордов и текст песни Ленинград - Дачники, под гитару.

Представляем Вашему вниманию полный разбор аккордов и текста песни Дачники, группы Ленинград. На нашем сайте вы можете найти сразу несколько подборов аккордов этой композиции, с разными вариантами тональности и манер игры на гитаре.

Поиск по алфавиту:
Реклама: