Аккорды и текст песни Виктор Цой — Спокойная ночь

       Intro: x2
E|------------------------------------------    
B|------------------------------------------     
G|---------0--------------------------------      
D|--------5-5--------00000000---------------       
A|00033333---33333222--------33232----------   
E|------------------------------------------     

1 куплет:
E|---------------------------------------------------------------- 
B|----------------------------------------------------------------
G|---------0-----------------------------------------------0------
D|--------5-5---------------------000---------------------5-5-----
A|00033333---33333---222-----222-----000003333323200033333---33333
E|----------------333---33333---33--------------------------------  
 
E|----------------------------------------------------------------- 
B|-----------------------------------------------------------000--- 
G|---------0-----------------------------------------------0----0-- 
D|--------5-5---------------------000---------------------5-5----5- 
A|00033333---33333---222-----222-----000003333323200033333--------- 
E|----------------333---33333---33--------------------------------- 
 
Крыши домов дрожат под тяжестью дней,    
Небесный пастух пасёт облака, 
Город стреляет в ночь дробью огней, 
Но ночь сильней, её власть велика. 

Припев:
        F                 Em
     А тем, кто ложится спать, 
                Am
     Спокойного сна,
 F C            Am
     спокойная ночь. 
      F                 Em
     Тем, кто ложится спать,
                Am    Am7
     спокойного сна, 
 F C            Am
     Спокойная ночь. 

Проигрыш: Am G Dm Dsus4 }x2

2 куплет:
   Am                                  G
Я ждал это время, и вот это время пришло,
 Dm        Dm6      Am            Am7
Те, кто молчал перестали молчать, 
Am                           
Те, кому нечего ждать, садятся в седло,
Dm       Dm6     Am             Am7
Их не догнать, уже не догнать. 

Припев:
        F                 Em
     А тем, кто ложится спать, 
                Am
     Спокойного сна,
 F C            Am
     спокойная ночь. 
      F                 Em
     Тем, кто ложится спать,
                Am    Am7
     спокойного сна, 
 F C            Am
     Спокойная ночь. 

Проигрыш: Am(V) Am7(V) G(III) }x2

3 куплет:
Am(V)                 Am7(V)       G(III)
Соседи приходят, им слышится стук копыт, 
Dm(V)    Dm6(V)     Am(V)
Мешает уснуть тревожит их сон, 
Am(V)            Am7(V)             G(III)
Те, кому нечего ждать, отправляются в путь, 
Dm(V)    Dm6(V) Am(V)
Те, кто спасёт, те, кто спасён. 

Припев:
        F                Em
     А тем, кто ложится спать, 
                Am    Am7
     Спокойного сна,
 F C            Am
     спокойная ночь. 
      F                Em
     Тем, кто ложится спать,
                Am    Am7
     спокойного сна, 
 F C(III)     Am(V)
     Спокойная ночь.
   

Другие аккорды Виктор Цой

Показать все

Разбор аккордов и текст песни Виктор Цой - Спокойная ночь, под гитару.

Представляем Вашему вниманию полный разбор аккордов и текста песни Спокойная ночь, группы Виктор Цой. На нашем сайте вы можете найти сразу несколько подборов аккордов этой композиции, с разными вариантами тональности и манер игры на гитаре.

Поиск по алфавиту:
Реклама: